This is the bassline for

Jolly Roger
- Andreas Niemi -

Intro:
|-----------------------|
|*---------------------*|
|*-67-7-8777-67-7-8777-*|
|-----------------------|

Verse: (In days of old...)
|----------------------------|----------------------------|
|-------------6-----67-9-6---|-------------6-----67-9-6---|
|7-7-77-7-7-9---7-9--------7-|7-7-77-7-7-9---7-9--------7-|
|----------------------------|----------------------------|

|---------------8-9-9-8--------|---------------8-9-9-8--------|
|-11-1111-11-11---------66-6-6-|-11-1111-11-11---------99-9-9-|
|------------------------------|------------------------------|
|------------------------------|------------------------------|

Intro:
|---------------------|
|---------------------|
|-67-7-8777-67-7-8777-|
|---------------------|

Chorus: (Hoist the Jolly Roger...)
|-----9---6---6-|-----9---6---6-|-----9---6---6-|
|---9-------6---|---9-------6---|---9-------6---|
|-7-------------|-7-------------|-7-------------|
|---------------|---------------|---------------|

(It's your money...)
|-----------------|-----------------|
|-----------------|-7-7-7-7-7-------|
|79-9-9-9-9-9-9-9-|-----------------|
|-----------------|-----------------|

Intro:
|---------------------|
|---------------------|
|-67-7-8777-67-7-8777-|
|---------------------|

Verse: (whistle)
|----------------------------|----------------------------|
|-------------6-----67-9-6---|-------------6-----67-9-6---|
|7-7-77-7-7-9---7-9--------7-|7-7-77-7-7-9---7-9--------7-|
|----------------------------|----------------------------|

|---------------8-9-9-8--------|---------------8-9-9-8--------|
|-11-1111-11-11---------66-6-6-|-11-1111-11-11---------99-9-9-|
|------------------------------|------------------------------|
|------------------------------|------------------------------|

Intro:
|---------------------|
|---------------------|
|-67-7-8777-67-7-8777-|
|---------------------|

Chorus: (Hoist the Jolly Roger...)
|-----9---6---6-|-----9---6---6-|-----9---6---6-|
|---9-------6---|---9-------6---|---9-------6---|
|-7-------------|-7-------------|-7-------------|
|---------------|---------------|---------------|

(It's your money...)
|-----------------|-----------------|
|-----------------|-7-7-7-7-7-------|
|79-9-9-9-9-9-9-9-|-----------------|
|-----------------|-----------------|


Intro:
|---------------------|
|---------------------|
|-67-7-8777-67-7-8777-|
|---------------------|

Verse: (Of all the pirates...)
|-------------6-----67-9-6---|-------------6-----67-9-6---|
|7-7-77-7-7-9---7-9--------7-|7-7-77-7-7-9---7-9--------7-|
|----------------------------|----------------------------|
|----------------------------|----------------------------|

|-11-1111-11-11-13-14-14-13-66-6-6-|
|----------------------------------|
|----------------------------------|
|----------------------------------|

-11-1111-11-11-13-14-14-13-99-9-9-|
----------------------------------|
----------------------------------|
----------------------------------|

Intro:
|---------------------|
|-67-7-8777-67-7-8777-|
|---------------------|
|---------------------|

Chorus: (Hoist the Jolly Roger...)
|---9-14---11----11-|---9-14---11----11-|---9-14---11----11-|
|-7-----------11----|-7-----------11----|-7-----------11----|
|-------------------|-------------------|-------------------|
|-------------------|-------------------|-------------------|

(It's your money...)
|-----------------|-7-7-7-7-7-------|
|79-9-9-9-9-9-9-9-|-----------------|
|-----------------|-----------------|
|-----------------|-----------------|


Chorus: (Hoist the Jolly Roger...)
|---9-14---11----11-|---9-14---11----11-|---9-14---11----11-|
|-7-----------11----|-7-----------11----|-7-----------11----|
|-------------------|-------------------|-------------------|
|-------------------|-------------------|-------------------|

(It's your money...)
|-----------------|-7-7-7-7-7-------|
|79-9-9-9-9-9-9-9-|-----------------|
|-----------------|-----------------|
|-----------------|-----------------|

BMG Music Publishing Limited

This page is part of the Prince Charming Lyrics Site